ISO-10303-21;
HEADER;
/* Generated by software containing ST-Developer
 * from STEP Tools, Inc. (www.steptools.com) 
 */

FILE_DESCRIPTION(
/* description */ (''),
/* implementation_level */ '2;1');

FILE_NAME(
/* name */ '',
/* time_stamp */ '2025-07-24T10:50:00+07:00',
/* author */ ('zeta-86'),
/* organization */ (''),
/* preprocessor_version */ 'ST-DEVELOPER v19.2',
/* originating_system */ 'Autodesk Inventor 2024',
/* authorisation */ '');

FILE_SCHEMA (('AUTOMOTIVE_DESIGN { 1 0 10303 214 3 1 1 }'));
ENDSEC;

DATA;
#10=MECHANICAL_DESIGN_GEOMETRIC_PRESENTATION_REPRESENTATION('',(#13),#468);
#11=SHAPE_REPRESENTATION_RELATIONSHIP('SRR','None',#475,#12);
#12=ADVANCED_BREP_SHAPE_REPRESENTATION('',(#14),#467);
#13=STYLED_ITEM('',(#484),#14);
#14=MANIFOLD_SOLID_BREP('\X2\04220432043504400434043E0435\X0\ \X2\04420435043B043E\X0\2',
#221);
#15=TOROIDAL_SURFACE('',#274,14.25,1.);
#16=(
BOUNDED_CURVE()
B_SPLINE_CURVE(2,(#460,#461,#462),.UNSPECIFIED.,.F.,.F.)
B_SPLINE_CURVE_WITH_KNOTS((3,3),(1.30510845639686,1.43034912484709),
 .UNSPECIFIED.)
CURVE()
GEOMETRIC_REPRESENTATION_ITEM()
RATIONAL_B_SPLINE_CURVE((0.999999998409354,0.996111156979129,0.996138570368056))
REPRESENTATION_ITEM('')
);
#17=(
BOUNDED_SURFACE()
B_SPLINE_SURFACE(2,2,((#433,#434,#435,#436,#437,#438,#439,#440,#441),(#442,
#443,#444,#445,#446,#447,#448,#449,#450),(#451,#452,#453,#454,#455,#456,
#457,#458,#459)),.UNSPECIFIED.,.F.,.T.,.F.)
B_SPLINE_SURFACE_WITH_KNOTS((3,3),(3,2,2,2,3),(1.30510843078338,1.5538364748041),
(-3.14159265358979,-1.5707963267949,0.,1.5707963267949,3.14159265358979),
 .UNSPECIFIED.)
GEOMETRIC_REPRESENTATION_ITEM()
RATIONAL_B_SPLINE_SURFACE(((1.,0.707106781186548,1.,0.707106781186548,1.,
0.707106781186548,1.,0.707106781186548,1.),(0.992276756954195,0.701645623656107,
0.992276756954195,0.701645623656107,0.992276756954195,0.701645623656107,
0.992276756954195,0.701645623656107,0.992276756954195),(1.,0.707106781186548,
1.,0.707106781186548,1.,0.707106781186548,1.,0.707106781186548,1.)))
REPRESENTATION_ITEM('')
SURFACE()
);
#18=CONICAL_SURFACE('',#260,12.25,0.785398163397446);
#19=CONICAL_SURFACE('',#264,13.7,0.785398163397448);
#20=CONICAL_SURFACE('',#270,13.7,0.785398163397448);
#21=B_SPLINE_CURVE_WITH_KNOTS('',3,(#370,#371,#372,#373,#374,#375,#376,
#377,#378,#379),.UNSPECIFIED.,.F.,.F.,(4,2,2,2,4),(-17.6509423332409,-17.4320464074622,
-16.8867008192879,-16.3413552311136,-16.1224591755889),.UNSPECIFIED.);
#22=B_SPLINE_CURVE_WITH_KNOTS('',3,(#384,#385,#386,#387,#388,#389,#390,
#391,#392,#393),.UNSPECIFIED.,.F.,.F.,(4,2,2,2,4),(16.1224591751695,16.3413552244867,
16.8867008192821,17.4320464140774,17.6509423336486),.UNSPECIFIED.);
#23=B_SPLINE_CURVE_WITH_KNOTS('',3,(#397,#398,#399,#400),.UNSPECIFIED.,
 .F.,.F.,(4,4),(4.29551944090344,4.370622019181),.UNSPECIFIED.);
#24=B_SPLINE_CURVE_WITH_KNOTS('',3,(#402,#403,#404,#405),.UNSPECIFIED.,
 .F.,.F.,(4,4),(4.370622019181,4.44547426795178),.UNSPECIFIED.);
#25=LINE('',#363,#31);
#26=LINE('',#408,#32);
#27=LINE('',#417,#33);
#28=LINE('',#424,#34);
#29=LINE('',#426,#35);
#30=LINE('',#431,#36);
#31=VECTOR('',#294,13.25);
#32=VECTOR('',#313,12.25);
#33=VECTOR('',#324,13.7);
#34=VECTOR('',#333,14.15);
#35=VECTOR('',#336,13.7);
#36=VECTOR('',#341,15.);
#37=CYLINDRICAL_SURFACE('',#249,13.25);
#38=CYLINDRICAL_SURFACE('',#258,34.6623887135973);
#39=CYLINDRICAL_SURFACE('',#267,14.15);
#40=CYLINDRICAL_SURFACE('',#271,15.);
#41=FACE_BOUND('',#58,.T.);
#42=FACE_BOUND('',#66,.T.);
#43=FACE_OUTER_BOUND('',#57,.T.);
#44=FACE_OUTER_BOUND('',#59,.T.);
#45=FACE_OUTER_BOUND('',#60,.T.);
#46=FACE_OUTER_BOUND('',#61,.T.);
#47=FACE_OUTER_BOUND('',#62,.T.);
#48=FACE_OUTER_BOUND('',#63,.T.);
#49=FACE_OUTER_BOUND('',#64,.T.);
#50=FACE_OUTER_BOUND('',#65,.T.);
#51=FACE_OUTER_BOUND('',#67,.T.);
#52=FACE_OUTER_BOUND('',#68,.T.);
#53=FACE_OUTER_BOUND('',#69,.T.);
#54=FACE_OUTER_BOUND('',#70,.T.);
#55=FACE_OUTER_BOUND('',#71,.T.);
#56=FACE_OUTER_BOUND('',#72,.T.);
#57=EDGE_LOOP('',(#142));
#58=EDGE_LOOP('',(#143));
#59=EDGE_LOOP('',(#144));
#60=EDGE_LOOP('',(#145,#146,#147,#148,#149,#150));
#61=EDGE_LOOP('',(#151,#152));
#62=EDGE_LOOP('',(#153,#154));
#63=EDGE_LOOP('',(#155,#156,#157,#158,#159));
#64=EDGE_LOOP('',(#160,#161,#162,#163));
#65=EDGE_LOOP('',(#164));
#66=EDGE_LOOP('',(#165));
#67=EDGE_LOOP('',(#166,#167,#168,#169,#170));
#68=EDGE_LOOP('',(#171,#172,#173,#174,#175,#176));
#69=EDGE_LOOP('',(#177,#178,#179,#180,#181,#182));
#70=EDGE_LOOP('',(#183,#184,#185,#186,#187));
#71=EDGE_LOOP('',(#188,#189,#190,#191,#192,#193,#194,#195,#196));
#72=EDGE_LOOP('',(#197,#198,#199,#200,#201));
#73=CIRCLE('',#245,15.);
#74=CIRCLE('',#246,14.6552327261872);
#75=CIRCLE('',#248,12.);
#76=CIRCLE('',#250,13.25);
#77=CIRCLE('',#251,13.25);
#78=CIRCLE('',#252,13.25);
#79=CIRCLE('',#253,13.25);
#80=CIRCLE('',#255,34.6623887135973);
#81=CIRCLE('',#257,34.6623887135973);
#82=CIRCLE('',#259,20.8776492944879);
#83=CIRCLE('',#261,12.5);
#84=CIRCLE('',#263,13.25);
#85=CIRCLE('',#265,14.15);
#86=CIRCLE('',#266,14.15);
#87=CIRCLE('',#268,14.15);
#88=CIRCLE('',#269,14.15);
#89=CIRCLE('',#272,15.);
#90=CIRCLE('',#273,15.);
#91=CIRCLE('',#275,1.);
#92=VERTEX_POINT('',#350);
#93=VERTEX_POINT('',#352);
#94=VERTEX_POINT('',#355);
#95=VERTEX_POINT('',#358);
#96=VERTEX_POINT('',#359);
#97=VERTEX_POINT('',#362);
#98=VERTEX_POINT('',#364);
#99=VERTEX_POINT('',#368);
#100=VERTEX_POINT('',#369);
#101=VERTEX_POINT('',#382);
#102=VERTEX_POINT('',#383);
#103=VERTEX_POINT('',#396);
#104=VERTEX_POINT('',#407);
#105=VERTEX_POINT('',#411);
#106=VERTEX_POINT('',#414);
#107=VERTEX_POINT('',#415);
#108=VERTEX_POINT('',#420);
#109=VERTEX_POINT('',#421);
#110=VERTEX_POINT('',#428);
#111=VERTEX_POINT('',#429);
#112=EDGE_CURVE('',#92,#92,#73,.T.);
#113=EDGE_CURVE('',#93,#93,#74,.T.);
#114=EDGE_CURVE('',#94,#94,#75,.T.);
#115=EDGE_CURVE('',#95,#96,#76,.T.);
#116=EDGE_CURVE('',#96,#95,#77,.T.);
#117=EDGE_CURVE('',#96,#97,#25,.T.);
#118=EDGE_CURVE('',#97,#98,#78,.T.);
#119=EDGE_CURVE('',#98,#97,#79,.T.);
#120=EDGE_CURVE('',#99,#100,#21,.T.);
#121=EDGE_CURVE('',#100,#99,#80,.T.);
#122=EDGE_CURVE('',#101,#102,#22,.T.);
#123=EDGE_CURVE('',#102,#101,#81,.T.);
#124=EDGE_CURVE('',#102,#103,#23,.T.);
#125=EDGE_CURVE('',#100,#101,#82,.T.);
#126=EDGE_CURVE('',#103,#99,#24,.T.);
#127=EDGE_CURVE('',#94,#104,#26,.T.);
#128=EDGE_CURVE('',#104,#104,#83,.T.);
#129=EDGE_CURVE('',#105,#105,#84,.T.);
#130=EDGE_CURVE('',#106,#107,#85,.T.);
#131=EDGE_CURVE('',#107,#105,#27,.T.);
#132=EDGE_CURVE('',#107,#106,#86,.T.);
#133=EDGE_CURVE('',#108,#109,#87,.T.);
#134=EDGE_CURVE('',#109,#108,#88,.T.);
#135=EDGE_CURVE('',#109,#106,#28,.T.);
#136=EDGE_CURVE('',#108,#98,#29,.T.);
#137=EDGE_CURVE('',#110,#111,#89,.T.);
#138=EDGE_CURVE('',#110,#92,#30,.T.);
#139=EDGE_CURVE('',#111,#110,#90,.T.);
#140=EDGE_CURVE('',#111,#103,#16,.T.);
#141=EDGE_CURVE('',#95,#93,#91,.T.);
#142=ORIENTED_EDGE('',*,*,#112,.F.);
#143=ORIENTED_EDGE('',*,*,#113,.T.);
#144=ORIENTED_EDGE('',*,*,#114,.F.);
#145=ORIENTED_EDGE('',*,*,#115,.F.);
#146=ORIENTED_EDGE('',*,*,#116,.F.);
#147=ORIENTED_EDGE('',*,*,#117,.T.);
#148=ORIENTED_EDGE('',*,*,#118,.T.);
#149=ORIENTED_EDGE('',*,*,#119,.T.);
#150=ORIENTED_EDGE('',*,*,#117,.F.);
#151=ORIENTED_EDGE('',*,*,#120,.F.);
#152=ORIENTED_EDGE('',*,*,#121,.F.);
#153=ORIENTED_EDGE('',*,*,#122,.F.);
#154=ORIENTED_EDGE('',*,*,#123,.F.);
#155=ORIENTED_EDGE('',*,*,#124,.F.);
#156=ORIENTED_EDGE('',*,*,#123,.T.);
#157=ORIENTED_EDGE('',*,*,#125,.F.);
#158=ORIENTED_EDGE('',*,*,#121,.T.);
#159=ORIENTED_EDGE('',*,*,#126,.F.);
#160=ORIENTED_EDGE('',*,*,#114,.T.);
#161=ORIENTED_EDGE('',*,*,#127,.T.);
#162=ORIENTED_EDGE('',*,*,#128,.T.);
#163=ORIENTED_EDGE('',*,*,#127,.F.);
#164=ORIENTED_EDGE('',*,*,#129,.F.);
#165=ORIENTED_EDGE('',*,*,#128,.F.);
#166=ORIENTED_EDGE('',*,*,#130,.T.);
#167=ORIENTED_EDGE('',*,*,#131,.T.);
#168=ORIENTED_EDGE('',*,*,#129,.T.);
#169=ORIENTED_EDGE('',*,*,#131,.F.);
#170=ORIENTED_EDGE('',*,*,#132,.T.);
#171=ORIENTED_EDGE('',*,*,#133,.F.);
#172=ORIENTED_EDGE('',*,*,#134,.F.);
#173=ORIENTED_EDGE('',*,*,#135,.T.);
#174=ORIENTED_EDGE('',*,*,#132,.F.);
#175=ORIENTED_EDGE('',*,*,#130,.F.);
#176=ORIENTED_EDGE('',*,*,#135,.F.);
#177=ORIENTED_EDGE('',*,*,#133,.T.);
#178=ORIENTED_EDGE('',*,*,#134,.T.);
#179=ORIENTED_EDGE('',*,*,#136,.T.);
#180=ORIENTED_EDGE('',*,*,#118,.F.);
#181=ORIENTED_EDGE('',*,*,#119,.F.);
#182=ORIENTED_EDGE('',*,*,#136,.F.);
#183=ORIENTED_EDGE('',*,*,#137,.F.);
#184=ORIENTED_EDGE('',*,*,#138,.T.);
#185=ORIENTED_EDGE('',*,*,#112,.T.);
#186=ORIENTED_EDGE('',*,*,#138,.F.);
#187=ORIENTED_EDGE('',*,*,#139,.F.);
#188=ORIENTED_EDGE('',*,*,#140,.T.);
#189=ORIENTED_EDGE('',*,*,#126,.T.);
#190=ORIENTED_EDGE('',*,*,#120,.T.);
#191=ORIENTED_EDGE('',*,*,#125,.T.);
#192=ORIENTED_EDGE('',*,*,#122,.T.);
#193=ORIENTED_EDGE('',*,*,#124,.T.);
#194=ORIENTED_EDGE('',*,*,#140,.F.);
#195=ORIENTED_EDGE('',*,*,#139,.T.);
#196=ORIENTED_EDGE('',*,*,#137,.T.);
#197=ORIENTED_EDGE('',*,*,#115,.T.);
#198=ORIENTED_EDGE('',*,*,#116,.T.);
#199=ORIENTED_EDGE('',*,*,#141,.T.);
#200=ORIENTED_EDGE('',*,*,#113,.F.);
#201=ORIENTED_EDGE('',*,*,#141,.F.);
#202=PLANE('',#244);
#203=PLANE('',#247);
#204=PLANE('',#254);
#205=PLANE('',#256);
#206=PLANE('',#262);
#207=ADVANCED_FACE('',(#43,#41),#202,.F.);
#208=ADVANCED_FACE('',(#44),#203,.F.);
#209=ADVANCED_FACE('',(#45),#37,.T.);
#210=ADVANCED_FACE('',(#46),#204,.F.);
#211=ADVANCED_FACE('',(#47),#205,.T.);
#212=ADVANCED_FACE('',(#48),#38,.F.);
#213=ADVANCED_FACE('',(#49),#18,.F.);
#214=ADVANCED_FACE('',(#50,#42),#206,.T.);
#215=ADVANCED_FACE('',(#51),#19,.T.);
#216=ADVANCED_FACE('',(#52),#39,.T.);
#217=ADVANCED_FACE('',(#53),#20,.T.);
#218=ADVANCED_FACE('',(#54),#40,.T.);
#219=ADVANCED_FACE('',(#55),#17,.F.);
#220=ADVANCED_FACE('',(#56),#15,.T.);
#221=CLOSED_SHELL('',(#207,#208,#209,#210,#211,#212,#213,#214,#215,#216,
#217,#218,#219,#220));
#222=DERIVED_UNIT_ELEMENT(#225,1.);
#223=DERIVED_UNIT_ELEMENT(#470,-3.);
#224=DIMENSIONAL_EXPONENTS(0.,1.,0.,0.,0.,0.,0.);
#225=(
CONVERSION_BASED_UNIT('gram',#227)
MASS_UNIT()
NAMED_UNIT(#224)
);
#226=(
MASS_UNIT()
NAMED_UNIT(*)
SI_UNIT(.KILO.,.GRAM.)
);
#227=MASS_MEASURE_WITH_UNIT(MASS_MEASURE(0.001),#226);
#228=DERIVED_UNIT((#222,#223));
#229=MEASURE_REPRESENTATION_ITEM('density measure',
POSITIVE_RATIO_MEASURE(1.),#228);
#230=PROPERTY_DEFINITION_REPRESENTATION(#235,#232);
#231=PROPERTY_DEFINITION_REPRESENTATION(#236,#233);
#232=REPRESENTATION('material name',(#234),#467);
#233=REPRESENTATION('density',(#229),#467);
#234=DESCRIPTIVE_REPRESENTATION_ITEM('\X2\04220438043F043E0432044B0435\X0\',
'\X2\04220438043F043E0432044B0435\X0\');
#235=PROPERTY_DEFINITION('material property','material name',#477);
#236=PROPERTY_DEFINITION('material property','density of part',#477);
#237=DATE_TIME_ROLE('creation_date');
#238=APPLIED_DATE_AND_TIME_ASSIGNMENT(#239,#237,(#477));
#239=DATE_AND_TIME(#240,#241);
#240=CALENDAR_DATE(2023,9,10);
#241=LOCAL_TIME(11,35,41.,#242);
#242=COORDINATED_UNIVERSAL_TIME_OFFSET(0,0,.BEHIND.);
#243=AXIS2_PLACEMENT_3D('',#348,#276,#277);
#244=AXIS2_PLACEMENT_3D('',#349,#278,#279);
#245=AXIS2_PLACEMENT_3D('',#351,#280,#281);
#246=AXIS2_PLACEMENT_3D('',#353,#282,#283);
#247=AXIS2_PLACEMENT_3D('',#354,#284,#285);
#248=AXIS2_PLACEMENT_3D('',#356,#286,#287);
#249=AXIS2_PLACEMENT_3D('',#357,#288,#289);
#250=AXIS2_PLACEMENT_3D('',#360,#290,#291);
#251=AXIS2_PLACEMENT_3D('',#361,#292,#293);
#252=AXIS2_PLACEMENT_3D('',#365,#295,#296);
#253=AXIS2_PLACEMENT_3D('',#366,#297,#298);
#254=AXIS2_PLACEMENT_3D('',#367,#299,#300);
#255=AXIS2_PLACEMENT_3D('',#380,#301,#302);
#256=AXIS2_PLACEMENT_3D('',#381,#303,#304);
#257=AXIS2_PLACEMENT_3D('',#394,#305,#306);
#258=AXIS2_PLACEMENT_3D('',#395,#307,#308);
#259=AXIS2_PLACEMENT_3D('',#401,#309,#310);
#260=AXIS2_PLACEMENT_3D('',#406,#311,#312);
#261=AXIS2_PLACEMENT_3D('',#409,#314,#315);
#262=AXIS2_PLACEMENT_3D('',#410,#316,#317);
#263=AXIS2_PLACEMENT_3D('',#412,#318,#319);
#264=AXIS2_PLACEMENT_3D('',#413,#320,#321);
#265=AXIS2_PLACEMENT_3D('',#416,#322,#323);
#266=AXIS2_PLACEMENT_3D('',#418,#325,#326);
#267=AXIS2_PLACEMENT_3D('',#419,#327,#328);
#268=AXIS2_PLACEMENT_3D('',#422,#329,#330);
#269=AXIS2_PLACEMENT_3D('',#423,#331,#332);
#270=AXIS2_PLACEMENT_3D('',#425,#334,#335);
#271=AXIS2_PLACEMENT_3D('',#427,#337,#338);
#272=AXIS2_PLACEMENT_3D('',#430,#339,#340);
#273=AXIS2_PLACEMENT_3D('',#432,#342,#343);
#274=AXIS2_PLACEMENT_3D('',#463,#344,#345);
#275=AXIS2_PLACEMENT_3D('',#464,#346,#347);
#276=DIRECTION('axis',(0.,0.,1.));
#277=DIRECTION('refdir',(1.,0.,0.));
#278=DIRECTION('center_axis',(0.,1.,0.));
#279=DIRECTION('ref_axis',(0.,0.,1.));
#280=DIRECTION('center_axis',(0.,1.,0.));
#281=DIRECTION('ref_axis',(1.,0.,0.));
#282=DIRECTION('center_axis',(-3.06161699786838E-17,1.,3.06161699786838E-17));
#283=DIRECTION('ref_axis',(0.,3.06161699786838E-17,-1.));
#284=DIRECTION('center_axis',(0.,1.,0.));
#285=DIRECTION('ref_axis',(0.,0.,1.));
#286=DIRECTION('center_axis',(0.,1.,0.));
#287=DIRECTION('ref_axis',(1.,0.,0.));
#288=DIRECTION('center_axis',(0.,1.,0.));
#289=DIRECTION('ref_axis',(-1.,0.,0.));
#290=DIRECTION('center_axis',(0.,1.,0.));
#291=DIRECTION('ref_axis',(-1.,0.,0.));
#292=DIRECTION('center_axis',(0.,1.,0.));
#293=DIRECTION('ref_axis',(-1.,0.,0.));
#294=DIRECTION('',(0.,-1.,0.));
#295=DIRECTION('center_axis',(0.,1.,0.));
#296=DIRECTION('ref_axis',(1.,0.,0.));
#297=DIRECTION('center_axis',(0.,1.,0.));
#298=DIRECTION('ref_axis',(1.,0.,0.));
#299=DIRECTION('center_axis',(1.,0.,0.));
#300=DIRECTION('ref_axis',(0.,0.,-1.));
#301=DIRECTION('center_axis',(1.,0.,0.));
#302=DIRECTION('ref_axis',(0.,1.,0.));
#303=DIRECTION('center_axis',(1.,0.,0.));
#304=DIRECTION('ref_axis',(0.,0.,-1.));
#305=DIRECTION('center_axis',(-1.,0.,0.));
#306=DIRECTION('ref_axis',(0.,1.,0.));
#307=DIRECTION('center_axis',(1.,0.,0.));
#308=DIRECTION('ref_axis',(0.,-0.999999998501043,-5.47532016271433E-5));
#309=DIRECTION('center_axis',(0.,-0.972996199024928,0.230821135693946));
#310=DIRECTION('ref_axis',(-0.047898112756612,0.230556205358569,0.971879419971949));
#311=DIRECTION('center_axis',(0.,-1.,0.));
#312=DIRECTION('ref_axis',(1.,0.,0.));
#313=DIRECTION('',(-0.707106781186546,-0.707106781186549,-8.65956056235491E-17));
#314=DIRECTION('center_axis',(0.,-1.,0.));
#315=DIRECTION('ref_axis',(1.,0.,0.));
#316=DIRECTION('center_axis',(0.,-1.,0.));
#317=DIRECTION('ref_axis',(0.,0.,-1.));
#318=DIRECTION('center_axis',(0.,1.,0.));
#319=DIRECTION('ref_axis',(1.,0.,0.));
#320=DIRECTION('center_axis',(0.,1.,0.));
#321=DIRECTION('ref_axis',(1.,0.,0.));
#322=DIRECTION('center_axis',(0.,-1.,0.));
#323=DIRECTION('ref_axis',(1.,0.,0.));
#324=DIRECTION('',(0.707106781186547,-0.707106781186548,-8.65956056235493E-17));
#325=DIRECTION('center_axis',(0.,-1.,0.));
#326=DIRECTION('ref_axis',(1.,0.,0.));
#327=DIRECTION('center_axis',(0.,1.,0.));
#328=DIRECTION('ref_axis',(-1.,0.,0.));
#329=DIRECTION('center_axis',(0.,1.,0.));
#330=DIRECTION('ref_axis',(1.,0.,0.));
#331=DIRECTION('center_axis',(0.,1.,0.));
#332=DIRECTION('ref_axis',(1.,0.,0.));
#333=DIRECTION('',(0.,-1.,0.));
#334=DIRECTION('center_axis',(0.,-1.,0.));
#335=DIRECTION('ref_axis',(1.,0.,0.));
#336=DIRECTION('',(0.707106781186547,0.707106781186548,8.65956056235493E-17));
#337=DIRECTION('center_axis',(0.,1.,0.));
#338=DIRECTION('ref_axis',(-1.,0.,0.));
#339=DIRECTION('center_axis',(0.,1.,0.));
#340=DIRECTION('ref_axis',(1.,0.,0.));
#341=DIRECTION('',(0.,-1.,0.));
#342=DIRECTION('center_axis',(0.,1.,0.));
#343=DIRECTION('ref_axis',(1.,0.,0.));
#344=DIRECTION('center_axis',(6.12323399573677E-17,-1.,-6.12323399573677E-17));
#345=DIRECTION('ref_axis',(1.72044527986503E-13,6.55213588303371E-17,-1.));
#346=DIRECTION('center_axis',(-1.,-6.12323399573572E-17,-1.72175570704164E-13));
#347=DIRECTION('ref_axis',(-1.72175570704164E-13,-5.91512267218321E-17,
1.));
#348=CARTESIAN_POINT('',(0.,0.,0.));
#349=CARTESIAN_POINT('Origin',(-5.7798381107337,0.334784070916677,0.));
#350=CARTESIAN_POINT('',(9.2201618892663,0.334784070916677,-1.83697019872103E-15));
#351=CARTESIAN_POINT('Origin',(-5.7798381107337,0.334784070916677,0.));
#352=CARTESIAN_POINT('',(-5.7798381107337,0.334784070916677,14.6552327261872));
#353=CARTESIAN_POINT('Origin',(-5.7798381107337,0.334784070916677,2.79897178224328E-17));
#354=CARTESIAN_POINT('Origin',(-5.7798381107337,-6.66521592908333,0.));
#355=CARTESIAN_POINT('',(-17.7798381107337,-6.66521592908333,1.46957615897682E-15));
#356=CARTESIAN_POINT('Origin',(-5.7798381107337,-6.66521592908333,0.));
#357=CARTESIAN_POINT('Origin',(-5.7798381107337,-0.115215929083323,0.));
#358=CARTESIAN_POINT('',(-5.77983811073598,-0.57942949145642,13.25));
#359=CARTESIAN_POINT('',(7.4701618892663,-0.57942949145642,-1.62265700887024E-15));
#360=CARTESIAN_POINT('Origin',(-5.7798381107337,-0.57942949145642,8.0007257119925E-37));
#361=CARTESIAN_POINT('Origin',(-5.7798381107337,-0.57942949145642,8.0007257119925E-37));
#362=CARTESIAN_POINT('',(7.4701618892663,-1.16521592908332,-1.62265700887024E-15));
#363=CARTESIAN_POINT('',(7.4701618892663,-0.115215929083323,-1.62265700887024E-15));
#364=CARTESIAN_POINT('',(-19.0298381107337,-1.16521592908332,0.));
#365=CARTESIAN_POINT('Origin',(-5.7798381107337,-1.16521592908332,0.));
#366=CARTESIAN_POINT('Origin',(-5.7798381107337,-1.16521592908332,0.));
#367=CARTESIAN_POINT('Origin',(-4.7798381107337,36.9971567556415,0.));
#368=CARTESIAN_POINT('',(-4.7798381107337,3.26802074170183,-7.98915359006642));
#369=CARTESIAN_POINT('',(-4.7798381107337,3.26802074170183,7.98915359006642));
#370=CARTESIAN_POINT('Ctrl Pts',(-4.7798381107337,3.2680207416394,-7.98915359005762));
#371=CARTESIAN_POINT('Ctrl Pts',(-4.7798381107337,3.3782483307852,-7.20729859996497));
#372=CARTESIAN_POINT('Ctrl Pts',(-4.7798381107337,3.47165503128267,-6.42694443314509));
#373=CARTESIAN_POINT('Ctrl Pts',(-4.7798381107337,3.73987722048227,-3.71956298689766));
#374=CARTESIAN_POINT('Ctrl Pts',(-4.77983811071281,3.82659634614439,-1.81781932924012));
#375=CARTESIAN_POINT('Ctrl Pts',(-4.77983811071281,3.82659639077406,1.81781792525524));
#376=CARTESIAN_POINT('Ctrl Pts',(-4.7798381107337,3.73987731180206,3.71956158504185));
#377=CARTESIAN_POINT('Ctrl Pts',(-4.7798381107337,3.47165514353566,6.42694349750898));
#378=CARTESIAN_POINT('Ctrl Pts',(-4.7798381107337,3.37824839695746,7.20729813206309));
#379=CARTESIAN_POINT('Ctrl Pts',(-4.7798381107337,3.26802074177672,7.98915359007698));
#380=CARTESIAN_POINT('Origin',(-4.7798381107337,36.9971567556415,0.));
#381=CARTESIAN_POINT('Origin',(-6.7798381107337,36.9971567556415,0.));
#382=CARTESIAN_POINT('',(-6.7798381107337,3.26802074170183,7.98915359006642));
#383=CARTESIAN_POINT('',(-6.7798381107337,3.26802074170183,-7.98915359006642));
#384=CARTESIAN_POINT('Ctrl Pts',(-6.7798381107337,3.26802074177718,7.98915359007705));
#385=CARTESIAN_POINT('Ctrl Pts',(-6.7798381107337,3.37824839376583,7.20729815471975));
#386=CARTESIAN_POINT('Ctrl Pts',(-6.7798381107337,3.47165513812248,6.42694354279238));
#387=CARTESIAN_POINT('Ctrl Pts',(-6.7798381107337,3.73987730971839,3.71956162970452));
#388=CARTESIAN_POINT('Ctrl Pts',(-6.77983811071281,3.82659639338937,1.81781794732534));
#389=CARTESIAN_POINT('Ctrl Pts',(-6.77983811071281,3.82659634875971,-1.81781935131023));
#390=CARTESIAN_POINT('Ctrl Pts',(-6.7798381107337,3.73987721839861,-3.71956303156035));
#391=CARTESIAN_POINT('Ctrl Pts',(-6.7798381107337,3.4716550258695,-6.4269444784285));
#392=CARTESIAN_POINT('Ctrl Pts',(-6.7798381107337,3.37824832759357,-7.20729862262164));
#393=CARTESIAN_POINT('Ctrl Pts',(-6.7798381107337,3.26802074163986,-7.98915359005767));
#394=CARTESIAN_POINT('Origin',(-6.7798381107337,36.9971567556415,0.));
#395=CARTESIAN_POINT('Origin',(-5.7798381107337,36.9971567556415,0.));
#396=CARTESIAN_POINT('',(-5.77983796626103,3.27355186429139,-8.01246931130627));
#397=CARTESIAN_POINT('Ctrl Pts',(-6.7798381107262,3.26802074166227,-7.98915358989968));
#398=CARTESIAN_POINT('Ctrl Pts',(-6.44756242998686,3.27169648047759,-8.00467206667684));
#399=CARTESIAN_POINT('Ctrl Pts',(-6.11397900046117,3.27355186482547,-8.01246931355415));
#400=CARTESIAN_POINT('Ctrl Pts',(-5.77983796626102,3.27355186429139,-8.01246931130627));
#401=CARTESIAN_POINT('Origin',(-5.77983811073332,-1.54545085644238,-12.3014040966383));
#402=CARTESIAN_POINT('Ctrl Pts',(-5.77983796626102,3.27355186429139,-8.01246931130627));
#403=CARTESIAN_POINT('Ctrl Pts',(-5.44681068024634,3.27355186375909,-8.01246930906589));
#404=CARTESIAN_POINT('Ctrl Pts',(-5.11323001057695,3.27170882844651,-8.00472419814714));
#405=CARTESIAN_POINT('Ctrl Pts',(-4.77983811074196,3.26802074166198,-7.98915358989847));
#406=CARTESIAN_POINT('Origin',(-5.7798381107337,-6.91521592908333,0.));
#407=CARTESIAN_POINT('',(-18.2798381107337,-7.16521592908333,-1.53080849893419E-15));
#408=CARTESIAN_POINT('',(-18.0298381107337,-6.91521592908333,-1.50019232895551E-15));
#409=CARTESIAN_POINT('Origin',(-5.7798381107337,-7.16521592908333,0.));
#410=CARTESIAN_POINT('Origin',(-19.9298381107337,-7.16521592908333,0.));
#411=CARTESIAN_POINT('',(-19.0298381107337,-7.16521592908333,1.62265700887024E-15));
#412=CARTESIAN_POINT('Origin',(-5.7798381107337,-7.16521592908333,0.));
#413=CARTESIAN_POINT('Origin',(-5.7798381107337,-6.71521592908333,0.));
#414=CARTESIAN_POINT('',(8.3701618892663,-6.26521592908333,-1.7328752207935E-15));
#415=CARTESIAN_POINT('',(-19.9298381107337,-6.26521592908333,1.73287522079351E-15));
#416=CARTESIAN_POINT('Origin',(-5.7798381107337,-6.26521592908333,0.));
#417=CARTESIAN_POINT('',(-19.4798381107337,-6.71521592908333,1.67776611483187E-15));
#418=CARTESIAN_POINT('Origin',(-5.7798381107337,-6.26521592908333,0.));
#419=CARTESIAN_POINT('Origin',(-5.7798381107337,-4.16521592908333,0.));
#420=CARTESIAN_POINT('',(-19.9298381107337,-2.06521592908332,1.7328752207935E-15));
#421=CARTESIAN_POINT('',(8.3701618892663,-2.06521592908332,-1.7328752207935E-15));
#422=CARTESIAN_POINT('Origin',(-5.7798381107337,-2.06521592908332,0.));
#423=CARTESIAN_POINT('Origin',(-5.7798381107337,-2.06521592908332,0.));
#424=CARTESIAN_POINT('',(8.3701618892663,-4.16521592908333,-1.7328752207935E-15));
#425=CARTESIAN_POINT('Origin',(-5.7798381107337,-1.61521592908332,0.));
#426=CARTESIAN_POINT('',(-19.4798381107337,-1.61521592908332,-1.67776611483187E-15));
#427=CARTESIAN_POINT('Origin',(-5.7798381107337,1.08478407091668,0.));
#428=CARTESIAN_POINT('',(9.2201618892663,1.83478407091668,-1.83697019872103E-15));
#429=CARTESIAN_POINT('',(-5.77983796992909,1.83478407100116,-15.));
#430=CARTESIAN_POINT('Origin',(-5.7798381107337,1.83478407091668,0.));
#431=CARTESIAN_POINT('',(9.2201618892663,1.08478407091668,-1.83697019872103E-15));
#432=CARTESIAN_POINT('Origin',(-5.7798381107337,1.83478407091668,0.));
#433=CARTESIAN_POINT('Ctrl Pts',(-5.77983796992909,1.83478368863427,-15.0000014051342));
#434=CARTESIAN_POINT('Ctrl Pts',(-20.7798386975216,1.83478372687606,-15.0000014051342));
#435=CARTESIAN_POINT('Ctrl Pts',(-20.7798386975216,1.8347839110102,-6.77541736130719E-7));
#436=CARTESIAN_POINT('Ctrl Pts',(-20.7798386975216,1.83478409514434,15.0000000500507));
#437=CARTESIAN_POINT('Ctrl Pts',(-5.77983796992909,1.83478405690255,15.0000000500508));
#438=CARTESIAN_POINT('Ctrl Pts',(9.22016275766339,1.83478401866075,15.0000000500507));
#439=CARTESIAN_POINT('Ctrl Pts',(9.2201627576634,1.83478383452662,-6.77541735191836E-7));
#440=CARTESIAN_POINT('Ctrl Pts',(9.22016275766339,1.83478365039248,-15.0000014051342));
#441=CARTESIAN_POINT('Ctrl Pts',(-5.77983796992909,1.83478368863427,-15.0000014051342));
#442=CARTESIAN_POINT('Ctrl Pts',(-5.77983796515914,3.7057542570643,-8.12449840357546));
#443=CARTESIAN_POINT('Ctrl Pts',(-13.9043356682256,3.70575427777732,-8.12449840357545));
#444=CARTESIAN_POINT('Ctrl Pts',(-13.9043356682256,3.70575437751048,-7.00509038562587E-7));
#445=CARTESIAN_POINT('Ctrl Pts',(-13.9043356682256,3.70575447724364,8.12449700255738));
#446=CARTESIAN_POINT('Ctrl Pts',(-5.77983796515914,3.70575445653062,8.12449700255738));
#447=CARTESIAN_POINT('Ctrl Pts',(2.34465973790727,3.7057544358176,8.12449700255738));
#448=CARTESIAN_POINT('Ctrl Pts',(2.34465973790728,3.70575433608444,-7.00509038054057E-7));
#449=CARTESIAN_POINT('Ctrl Pts',(2.34465973790727,3.70575423635128,-8.12449840357545));
#450=CARTESIAN_POINT('Ctrl Pts',(-5.77983796515914,3.7057542570643,-8.12449840357546));
#451=CARTESIAN_POINT('Ctrl Pts',(-5.77983796485106,3.82659635996566,-1.0000005561098));
#452=CARTESIAN_POINT('Ctrl Pts',(-6.77983781896841,3.82659636251511,-1.0000005561098));
#453=CARTESIAN_POINT('Ctrl Pts',(-6.77983781896841,3.82659637479071,-7.01992447706504E-7));
#454=CARTESIAN_POINT('Ctrl Pts',(-6.77983781896841,3.82659638706632,0.999999152124902));
#455=CARTESIAN_POINT('Ctrl Pts',(-5.77983796485106,3.82659638451686,0.999999152124903));
#456=CARTESIAN_POINT('Ctrl Pts',(-4.77983811073371,3.82659638196741,0.999999152124902));
#457=CARTESIAN_POINT('Ctrl Pts',(-4.77983811073371,3.82659636969181,-7.01992447643912E-7));
#458=CARTESIAN_POINT('Ctrl Pts',(-4.77983811073371,3.82659635741621,-1.0000005561098));
#459=CARTESIAN_POINT('Ctrl Pts',(-5.77983796485106,3.82659635996566,-1.0000005561098));
#460=CARTESIAN_POINT('Ctrl Pts',(-5.77983796992909,1.83478407099533,-15.0000000000214));
#461=CARTESIAN_POINT('Ctrl Pts',(-5.77983796753655,2.77323712392625,-11.551342099281));
#462=CARTESIAN_POINT('Ctrl Pts',(-5.77983796626102,3.27355186429138,-8.01246931130635));
#463=CARTESIAN_POINT('Origin',(-5.7798381107337,-0.57942949145642,8.0007257119925E-37));
#464=CARTESIAN_POINT('Origin',(-5.77983811073615,-0.579429491456421,14.25));
#465=UNCERTAINTY_MEASURE_WITH_UNIT(LENGTH_MEASURE(0.01),#469,
'DISTANCE_ACCURACY_VALUE',
'Maximum model space distance between geometric entities at asserted c
onnectivities');
#466=UNCERTAINTY_MEASURE_WITH_UNIT(LENGTH_MEASURE(0.01),#469,
'DISTANCE_ACCURACY_VALUE',
'Maximum model space distance between geometric entities at asserted c
onnectivities');
#467=(
GEOMETRIC_REPRESENTATION_CONTEXT(3)
GLOBAL_UNCERTAINTY_ASSIGNED_CONTEXT((#465))
GLOBAL_UNIT_ASSIGNED_CONTEXT((#469,#471,#472))
REPRESENTATION_CONTEXT('','3D')
);
#468=(
GEOMETRIC_REPRESENTATION_CONTEXT(3)
GLOBAL_UNCERTAINTY_ASSIGNED_CONTEXT((#466))
GLOBAL_UNIT_ASSIGNED_CONTEXT((#469,#471,#472))
REPRESENTATION_CONTEXT('','3D')
);
#469=(
LENGTH_UNIT()
NAMED_UNIT(*)
SI_UNIT(.MILLI.,.METRE.)
);
#470=(
LENGTH_UNIT()
NAMED_UNIT(*)
SI_UNIT(.CENTI.,.METRE.)
);
#471=(
NAMED_UNIT(*)
PLANE_ANGLE_UNIT()
SI_UNIT($,.RADIAN.)
);
#472=(
NAMED_UNIT(*)
SI_UNIT($,.STERADIAN.)
SOLID_ANGLE_UNIT()
);
#473=SHAPE_DEFINITION_REPRESENTATION(#474,#475);
#474=PRODUCT_DEFINITION_SHAPE('',$,#477);
#475=SHAPE_REPRESENTATION('',(#243),#467);
#476=PRODUCT_DEFINITION_CONTEXT('part definition',#481,'design');
#477=PRODUCT_DEFINITION('\X2\0414043504420430043B044C\X0\23',
'\X2\04170420\X0\1-\X2\041B0420\X0\-PG21 (zeta35035)',#478,#476);
#478=PRODUCT_DEFINITION_FORMATION('',$,#483);
#479=PRODUCT_RELATED_PRODUCT_CATEGORY('\X2\04170420\X0\1-\X2\041B0420\X0\-
PG21 (zeta35035)','\X2\04170420\X0\1-\X2\041B0420\X0\-PG21 (zeta35035)',
(#483));
#480=APPLICATION_PROTOCOL_DEFINITION('international standard',
'automotive_design',2009,#481);
#481=APPLICATION_CONTEXT(
'Core Data for Automotive Mechanical Design Process');
#482=PRODUCT_CONTEXT('part definition',#481,'mechanical');
#483=PRODUCT('\X2\0414043504420430043B044C\X0\23',
'\X2\04170420\X0\1-\X2\041B0420\X0\-PG21 (zeta35035)',$,(#482));
#484=PRESENTATION_STYLE_ASSIGNMENT((#485));
#485=SURFACE_STYLE_USAGE(.BOTH.,#488);
#486=SURFACE_STYLE_RENDERING_WITH_PROPERTIES($,#492,(#487));
#487=SURFACE_STYLE_TRANSPARENT(0.);
#488=SURFACE_SIDE_STYLE('',(#489,#486));
#489=SURFACE_STYLE_FILL_AREA(#490);
#490=FILL_AREA_STYLE('',(#491));
#491=FILL_AREA_STYLE_COLOUR('',#492);
#492=COLOUR_RGB('',0.749019607843137,0.749019607843137,0.749019607843137);
ENDSEC;
END-ISO-10303-21;
